主页 > 生活百科 > > 怎么看懂吉他谱

吉他有一套专门的音符标识系统,叫做“吉他谱”,也叫“六线谱”。有了吉他谱,即便不认识乐谱的人也能演奏各种乐曲。虽然吉他谱在记述音乐方面不够完美,但它能够帮助世界每个角落的吉他初学者通过网络快速方便地分享弹奏方法。每个吉他演奏者都应该懂得读吉他谱的基本方法,网上流传的大部分吉他曲都是用这种系统记述的。

方法1读懂吉他谱上的音符和和弦

方法2特殊符号

    怎么看懂吉他谱

    1注意吉他谱上的特殊符号。 从上边的例子你可能已经看出,很多吉他谱不仅有线和音符。吉他谱使用了很多特殊符号来标示音符的弹奏方法。大部分的特殊符号都表示特殊的弹奏技巧,以使弹奏尽可能接近录音,一定要格外注意这些特殊符号。

    怎么看懂吉他谱

    2击弦符号。 两个音符间的“h”(如7h9)表示击弦。击弦的时候先正常弹响第一个音符,然后用按品手的一根手指敲击出下一个音符,而不是用拨弦的那只手。

    有时也用“^”代替(如7^9)。 怎么看懂吉他谱

    3勾弦符号。 两个音符之间的“p”(如9p7)表示勾弦。勾弦和击弦正好相反,先弹响第一个音符,同时用另一个手指去按第二个音符的品,然后将按第一个音符的手指迅速离开,这时就会发出第二个音符的声音。

    有时候,勾弦也会跟击弦一样用“^”表示。这种情况下,如果第二个音符比第一个音符低,就是勾弦,比第一个音符高,就是击弦。 怎么看懂吉他谱

    4推弦符号。 用两个音符之间的“b”(如7b9)表示。弹奏的时候手指先按第一个音符的品,再推动琴弦,使其发出第二个音符的声音。

    有时候第二个音符会用括号括起来,“b”也会省略。如果有“r”,表示推弦后应该回到的音符(如7b9r7)。 怎么看懂吉他谱

    5滑弦符号。 基本的滑弦是先弹响一个音符,按品的手指不松开琴弦并向上或向下沿琴弦滑动到目标音符。向上滑弦用“/”表示,向下滑用“\”表示(如“7/9\7”)。

    小写“s”通常表示连续滑弦。这种技巧跟普通滑弦差不多,但你只用拨片弹响第一个音符,目标音符都用按品的手来完成。怎么看懂吉他谱对于滑弦过程中要不要轻轻拨弦,很多人也有争议。最重要的是滑弦过程中不要有停顿。 转换滑弦用大写“S”表示。它是指首音符不弹响,手指滑到目标音符时弹响。怎么看懂吉他谱

    6摇把技术相关符号。 如果你的吉他有摇把(也叫摇杆或颤音杆),学习一下下面的符号来弹奏出特殊的效果。

    如果看到“\n/”这样一个符号,其中“n”代表一个数字,表示这里有一个音调的向下波动。具体操作就是压低摇把并迅速放开,以降低音调。斜线中间的数字表示应该降低的音高。数字是几就降低几个半音(相邻两品的音高差就是一个半音)。 比如,“\5/”代表音调降低5个半音,也就是在指板上降低5品的音调。怎么看懂吉他谱 如果看到“\n”,其中“n”代表一个数字,表示要下摇。弹响音符“n”,然后用力下压摇把,迅速降低音调。 如果看到“n/”符号,就要在弹奏音符“n”后向上提摇把,以提高音调。有的吉他还可以把摇把拉到“反向”位,这时压低摇把就会音调升高而不是降低。 如果见到“/n\”,说明这里有一个音调的向上波动。把摇把拉到反向位,然后先压低再拉高摇把即可。怎么看懂吉他谱 怎么看懂吉他谱

    7揉弦符号。 如果见到符号“~”或“v”,则表示揉弦。弹响音符,然后按品的手快速来回揉动琴弦,发出颤音。

    8闷音符号。 有好几种符号分别代表不同的闷音技术。

    如果数字下方出现“x”或一个点,就把按品手的手指放在指定弦上,来制造一种比较闷的声音。如果相邻的弦上出现了一串“x”则表示切音,即同时在好几根弦上进行闷音处理。怎么看懂吉他谱 “PM”表示手掌闷音。对一般右手拨弦的弹奏者来说,就是轻轻地用右手手掌侧面放在琴颈前的弦上。当弹奏时(跟闷音用的是同一只手),应该能听出音调,但音色比较闷,手掌越靠近琴颈,声音越弱。怎么看懂吉他谱 怎么看懂吉他谱

    9点弦符号。 通常用“t”表示(如“2h5t12p5p2”)。点弦时用拨弦手(通常是右手)的一根手指用力锤击指定的品位,以快速改变音高。

    10泛音符号。 泛音是一种特殊的按弦技巧,能够弹奏出如同铃声一般的音色。吉他谱有好几种不同的泛音符号,分别代表不同的技巧。

    自然泛音的音符一般用“<>”括起来(如<7>)。把按品手的手指放在品位右侧,而非品位中间,然后拨动琴弦,就会发出铃声一样清澈的声音。怎么看懂吉他谱 人工泛音的音符用“[]”括起来(如“[n]”)。具体方法是用弹奏的手拨动琴弦,同时大拇指放在琴弦上,以发出泛音。按品的手同时揉弦可以延长泛音。 人工泛音是一种比较难的技巧,要多多练习。怎么看懂吉他谱注意:要达到最佳效果,最好使用有失真的电吉他和后段拾音器。 击弦泛音由两个音符表示,其中第二个音符用括号括起来(如n(n))。击弦泛音有点像自然泛音,区别在于击弦泛音是在琴颈上完成的。根据第一个音符按品,然后拨弦手用一个手指敲击第二个音符的品位。 怎么看懂吉他谱 怎么看懂吉他谱

    11震音符号。 震音符号“tr”通常写在吉他谱两个音符之间或上方。 这个符号出现的时候通常还会跟着一串“~”。具体弹奏方法是,弹响第一个音符,然后用击弦技术处理第二个音符,并重复勾弦弹奏第一个音符。

    怎么看懂吉他谱

    12匹克震音。 “TP”表示你应该用颤音的演奏方法处理某个音符。也就是用最快的速度不断地拨动琴弦弹奏某个音符。有时“TP”后还会跟着一串波浪号或破折号,表示颤音持续的时间。 广告

方法3实例练习

    1读下面的吉他谱。 注意里边有几个三音符和弦,还有高位弦上的递减。我们来一步一步地讲解。

    E---------------3-0--------------------||
    B-------------------3-0----------------||
    G---7-7-7---------------2-0------------||
    D-2-7-7-7-7-7-7------------------------||
    A-2-5-5-5-7-7-7------------------------||
    E-0-------5-5-5------------------------||

    2先看最左边的和弦,我们要先弹奏E和弦(中指/2指放在A弦第2品,无名指/3指放在D弦第2品,E弦是空弦)。 扫这3根弦(E、A、D)一次。我们弹的就是下面括号括起来的部分:

    E-------------3-0-----------------||
    B----------------3-0--------------||
    G-----777-----------2-0-----------||
    D-(2)-777--777--------------------||
    A-(2)-555--777--------------------||
    E-(0)------555--------------------||

    3下面来看第2个和弦。 这个和弦要弹三次。我们把食指放在A弦5品,中指放在D弦7品,无名指在G弦7品。现在我们手型保持不变,向下平移一根弦的距离,然后我们的食指就到了E弦5品,另两根手指到了A弦和D弦的7品。按照下谱括号给出的顺序试着演奏一下:

    E-------------3-0-----------------||
    B----------------3-0--------------||
    G----(7)77-----------2-0----------||
    D-2--(7)77--777-------------------||
    A-2--(5)55--777-------------------||
    E-0---------555-------------------||

    E---------------3-0---------------||
    B------------------3-0------------||
    G----7(7)7------------2-0---------||
    D-2--7(7)7--777-------------------||
    A-2--5(5)5--777-------------------||
    E-0---------555-------------------||

    E---------------3-0---------------||
    B------------------3-0------------||
    G----77(7)------------2-0---------||
    D-2--77(7)--777-------------------||
    A-2--55(5)--777-------------------||
    E-0---------555-------------------||

    E---------------3-0---------------||
    B------------------3-0------------||
    G----777--------------2-0---------||
    D-2--777--(7)77-------------------||
    A-2--555--(7)77-------------------||
    E-0-------(5)55-------------------||

    E---------------3-0---------------||
    B------------------3-0------------||
    G----777--------------2-0---------||
    D-2--777--7(7)7-------------------||
    A-2--555--7(7)7-------------------||
    E-0-------5(5)5-------------------||

    E---------------3-0---------------||
    B------------------3-0------------||
    G----777--------------2-0---------||
    D-2--777--77(7)-------------------||
    A-2--555--77(7)-------------------||
    E-0-------55(5)-------------------||

    4弹奏右边的单个音节。 弹完3个和弦之后现在我们要弹右边的单个音节。用任意一根手指按住高E弦3品,拨一下琴弦,再放开按品的手,拨一下空弦。以此类推,我们可以用同样的方法弹奏这6个音符。按照下谱括号给出的顺序试着演奏一下:

    E---------------(3)-0-------------------||
    B--------------------3-0----------------||
    G---7-7-7----------------2-0------------||
    D-2-7-7-7-7-7-7-------------------------||
    A-2-5-5-5-7-7-7-------------------------||
    E-0-------5-5-5-------------------------||

    E---------------3-(0)-------------------||
    B--------------------3-0----------------||
    G---7-7-7----------------2-0------------||
    D-2-7-7-7-7-7-7-------------------------||
    A-2-5-5-5-7-7-7-------------------------||
    E-0-------5-5-5-------------------------||

    E---------------3-0---------------------||
    B--------------------(3)-0--------------||
    G---7-7-7------------------2-0----------||
    D-2-7-7-7-7-7-7-------------------------||
    A-2-5-5-5-7-7-7-------------------------||
    E-0-------5-5-5-------------------------||

    E---------------3-0---------------------||
    B--------------------3-(0)--------------||
    G---7-7-7------------------2-0----------||
    D-2-7-7-7-7-7-7-------------------------||
    A-2-5-5-5-7-7-7-------------------------||
    E-0-------5-5-5-------------------------||

    E---------------3-0---------------------||
    B--------------------3-0----------------||
    G---7-7-7----------------(2)-0----------||
    D-2-7-7-7-7-7-7-------------------------||
    A-2-5-5-5-7-7-7-------------------------||
    E-0-------5-5-5-------------------------||

    E---------------3-0---------------------||
    B--------------------3-0----------------||
    G---7-7-7----------------2-(0)----------||
    D-2-7-7-7-7-7-7-------------------------||
    A-2-5-5-5-7-7-7-------------------------||
    E-0-------5-5-5-------------------------||

    5连起来弹一遍。 现在从左到右把和弦和单音符连起来演奏。可以一边弹一边点脚给自己打拍子。一开始不要太快,熟练了之后再提高速度。广告

注意事项

先从简单的乐谱读起,一定要找你听过的歌,这样读谱的时候你就知道这首歌本来应该是怎样的。 刚开始有些和弦手型可能会有点别扭。你可以试着找到自己按着舒服的和弦手型。 认真读谱。有的人会用不同的符号表示滑弦、推弦和勾弦之类的技巧,但是这种情况一般会在乐谱上方标明。
广告

警告

很多网上的吉他谱网站未经许可就使用了个人作品。访问合法网站(如MxTabs.net或GuitarWorld.com),确保你用的吉他谱是经作者同意登载的。很多作者会和网站合作,从广告收入中分成。 网上很多吉他谱都是用户自己上传的,不一定准确。 吉他谱没法帮你学习和理解乐理,因为吉他谱会直观地告诉你手指该放哪里。很多书里吉他谱旁边都配有标准乐谱。对于任何水平的吉他演奏者,吉他谱都很有用,尤其对一般爱好者来说,是再适合不过的了。 吉他谱的缺点之一是不能准确标识节奏。如果你总是没法掌握某首曲子的节奏,建议换一首曲子,或者考虑学习一下怎么看标准乐谱。 一些音乐家不愿自己的作品未经同意就被发表,所以我们在网上发帖的时候要注意这一点。 除了缺少节奏信息,吉他谱相对于标准乐谱还有一些局限,如无法标注和弦声位,无法把旋律和伴奏分离,无法展示旋律或其它复杂音乐细节。 广告

你需要准备

吉他 拨片(可选)
相关百科

室内种植物对人体有哪些

心理学教授还发现气味怡人的室内使人工作有自信和效率,且较有诚意化解冲突。目前国外已经将芳香精油的研究成果转化为应用产品。 室内种植物对人体...全文

类似文章
  • 怎样布置家居风水让父母幸福又安康

    【摘要】家中有父母,家中有爱,我们都希望父母健康、长寿,幸福,但你为父母做了一些什么呢?给父母买礼物、衣服、营养品?这些都太寻常了,没什么新意。...

  • 如何写作记叙文

    【摘要】记叙文就是再现自己或他人经历的一种文体。记叙文好比是用文字的形式来讲一个故事,但并不是简单的重述事件,而要包括场景的还原与主旨的提炼。一...

  • 家居客厅如何装修好?客厅装修设计的基本要求

    【摘要】客厅作为家庭的门面,其装饰的风格已经趋于多元化、个性化,它的功能也越来越多,同时具有会客、展示、娱乐、视听等功能,所以在装修设计上都要兼...

  • 这些摆放床位方法会影响睡眠

    【摘要】这些摆放床位方法会影响睡眠 这些摆放床位方法会影响睡眠 1、床位正对梳妆镜。 摆放床位时不宜正对梳妆镜,这主要是因为夜间起夜时,在光线较暗的地...

  • 养花小技巧 啤酒擦拭叶片会更加翠绿并富有光泽

    【摘要】爱养花之人,想必都会有自己的养花小技巧,可是,小技巧之间也是要相互交流的,今天360常识网就将自己知道的小技巧分享出来! 啤酒 啤酒浇花:用三...